ТОРВАЛЬД [L5]  LN 
0

[61/61]
0
6
5
0
0
0
6
0
0
 0/0
 0/0
 0/0
 6/6
 0/0
 0/0
6
 
Имя:Александр
Город:Москва
ДР:1989-11-16
Девиз:Кто к нам с мечом придет...того проще застрелить!=)
Статус: OFFLINE - 3488 д. 13 ч. 12 мин.
(Давно не появляется) 
Дата рождения:2007-09-03 18:01:38
Место:Замок Паладинов
Локация:Шахта




Список врагов пуст...
Великий должен 56 стали

ДЕЛАЮ ЮВЕЛИРНЫЕ ИЗДЕЛИЯ ИЗ ВАШИХ РЕСУРСОВ:
Плавка Серебрянной руды - 5 монет
Плавка Золотой руды - 10 монет
Плавка Серебра в Очищенное серебро - 5 монет
Плавка Золота в Очищенное золото - 10 монет
1 лвл - 5 монет
2 лвл - 5 монет
3 лвл - 10 монет
4 лвл - 20 монет
5 лвл - 30 монет
6 лвл - 40 монет




Победа или смерть!
Стоим доконца!
Один за всех и все за одного!


"Земля под ногами и небо над нами –
Вот всё, что нам нужно, всегда и сейчас,
Да в Сердце - Огонь, запалённый Богами…
А коль Боги с нами – то кто ж против нас?"


---4-------------------------700---------------------------800
---5------------------------1500--------------------------1500
---6------------------------3000--------------------------3000
---7------------------------6500--------------------------6000
---8-----------------------13000-------------------------10000
---9-----------------------25000-------------------------20000
--10----------------------50000--------------------------40000
--11---------------------100000-------------------------70000
--12---------------------200000------------------------100000
--13---------------------400000------------------------150000
--14---------------------800000------------------------200000
--15--------------------1500000------------------------300000 (ты далеко от меня ...)



Ранг...................Опыт
Адепт..................500
Мастер................2500
Грандмастер........12500
Элита..................65200

Улица. Фонарь. Аптека.
Бар. Клуб. Девицы. Дискотека.
Рулетка. Покер. Фишки. В глаз.
Такси. Квартира. Унитаз.
Жена. Постель. Подушка. Сон.
Рассвет. Рассол. Таблетка. Стон.
Визг. Дети. Мусор. Пылесос.
Обед. Жена. Тарелки. Пес.
Звонок. Дверь. Теща. Тесть. Бутылка.
Застолье. "Скорая". Носилки.
Спирт. Вата. Скальпель. Огурец.
Морг. Санитары. Все. Пи...